  0
SECTION
  2
HEADER
  9
$ACADVER
  1
AC1015
  9
$ACADMAINTVER
 70
     6
  9
$DWGCODEPAGE
  3
ANSI_1254
  9
$INSBASE
 10
0.0
 20
0.0
 30
0.0
  9
$EXTMIN
 10
0.0
 20
0.0
 30
0.0
  9
$EXTMAX
 10
279.4
 20
215.9
 30
0.0
  9
$LIMMIN
 10
0.0
 20
0.0
  9
$LIMMAX
 10
279.4
 20
215.9
  9
$ORTHOMODE
 70
     0
  9
$REGENMODE
 70
     1
  9
$FILLMODE
 70
     1
  9
$QTEXTMODE
 70
     0
  9
$MIRRTEXT
 70
     1
  9
$LTSCALE
 40
1.0
  9
$ATTMODE
 70
     1
  9
$TEXTSIZE
 40
3.5
  9
$TRACEWID
 40
1.0
  9
$TEXTSTYLE
  7
Standard
  9
$CLAYER
  8
0
  9
$CELTYPE
  6
ByLayer
  9
$CECOLOR
 62
   256
  9
$CELTSCALE
 40
1.0
  9
$DISPSILH
 70
     0
  9
$DIMSCALE
 40
1.0
  9
$DIMASZ
 40
3.5
  9
$DIMEXO
 40
1.0
  9
$DIMDLI
 40
3.75
  9
$DIMRND
 40
0.0
  9
$DIMDLE
 40
0.0
  9
$DIMEXE
 40
1.0
  9
$DIMTP
 40
0.0
  9
$DIMTM
 40
0.0
  9
$DIMTXT
 40
3.5
  9
$DIMCEN
 40
2.5
  9
$DIMTSZ
 40
0.0
  9
$DIMTOL
 70
     0
  9
$DIMLIM
 70
     0
  9
$DIMTIH
 70
     1
  9
$DIMTOH
 70
     1
  9
$DIMSE1
 70
     0
  9
$DIMSE2
 70
     0
  9
$DIMTAD
 70
     1
  9
$DIMZIN
 70
     0
  9
$DIMBLK
  1

  9
$DIMASO
 70
     1
  9
$DIMSHO
 70
     1
  9
$DIMPOST
  1

  9
$DIMAPOST
  1

  9
$DIMALT
 70
     0
  9
$DIMALTD
 70
     3
  9
$DIMALTF
 40
0.0393700787
  9
$DIMLFAC
 40
1.0
  9
$DIMTOFL
 70
     1
  9
$DIMTVP
 40
0.0
  9
$DIMTIX
 70
     0
  9
$DIMSOXD
 70
     0
  9
$DIMSAH
 70
     0
  9
$DIMBLK1
  1

  9
$DIMBLK2
  1

  9
$DIMSTYLE
  2
ISO-25
  9
$DIMCLRD
 70
     0
  9
$DIMCLRE
 70
     0
  9
$DIMCLRT
 70
     0
  9
$DIMTFAC
 40
1.0
  9
$DIMGAP
 40
1.524
  9
$DIMJUST
 70
     0
  9
$DIMSD1
 70
     0
  9
$DIMSD2
 70
     0
  9
$DIMTOLJ
 70
     0
  9
$DIMTZIN
 70
     0
  9
$DIMALTZ
 70
     0
  9
$DIMALTTZ
 70
     0
  9
$DIMUPT
 70
     0
  9
$DIMDEC
 70
     2
  9
$DIMTDEC
 70
     2
  9
$DIMALTU
 70
     2
  9
$DIMALTTD
 70
     3
  9
$DIMTXSTY
  7
Standard
  9
$DIMAUNIT
 70
     0
  9
$DIMADEC
 70
     2
  9
$DIMALTRND
 40
0.0
  9
$DIMAZIN
 70
     0
  9
$DIMDSEP
 70
    44
  9
$DIMATFIT
 70
     3
  9
$DIMFRAC
 70
     0
  9
$DIMLDRBLK
  1

  9
$DIMLUNIT
 70
     2
  9
$DIMLWD
 70
    -2
  9
$DIMLWE
 70
    -2
  9
$DIMTMOVE
 70
     0
  9
$LUNITS
 70
     2
  9
$LUPREC
 70
     2
  9
$SKETCHINC
 40
1.0
  9
$FILLETRAD
 40
10.0
  9
$AUNITS
 70
     0
  9
$AUPREC
 70
     2
  9
$MENU
  1
.
  9
$ELEVATION
 40
0.0
  9
$PELEVATION
 40
0.0
  9
$THICKNESS
 40
0.0
  9
$LIMCHECK
 70
     0
  9
$CHAMFERA
 40
0.0
  9
$CHAMFERB
 40
0.0
  9
$CHAMFERC
 40
0.0
  9
$CHAMFERD
 40
0.0
  9
$SKPOLY
 70
     0
  9
$TDCREATE
 40
2460704.460283102
  9
$TDUCREATE
 40
2460704.335283102
  9
$TDUPDATE
 40
2460704.460283287
  9
$TDUUPDATE
 40
2460704.335283287
  9
$TDINDWG
 40
0.0000000116
  9
$TDUSRTIMER
 40
0.0000000116
  9
$USRTIMER
 70
     1
  9
$ANGBASE
 50
0.0
  9
$ANGDIR
 70
     0
  9
$PDMODE
 70
     0
  9
$PDSIZE
 40
-1.0
  9
$PLINEWID
 40
0.0
  9
$SPLFRAME
 70
     0
  9
$SPLINETYPE
 70
     6
  9
$SPLINESEGS
 70
     8
  9
$HANDSEED
  5
B7
  9
$SURFTAB1
 70
     6
  9
$SURFTAB2
 70
     6
  9
$SURFTYPE
 70
     6
  9
$SURFU
 70
     6
  9
$SURFV
 70
     6
  9
$UCSBASE
  2

  9
$UCSNAME
  2

  9
$UCSORG
 10
0.0
 20
0.0
 30
0.0
  9
$UCSXDIR
 10
1.0
 20
0.0
 30
0.0
  9
$UCSYDIR
 10
0.0
 20
1.0
 30
0.0
  9
$UCSORTHOREF
  2

  9
$UCSORTHOVIEW
 70
     0
  9
$UCSORGTOP
 10
0.0
 20
0.0
 30
0.0
  9
$UCSORGBOTTOM
 10
0.0
 20
0.0
 30
0.0
  9
$UCSORGLEFT
 10
0.0
 20
0.0
 30
0.0
  9
$UCSORGRIGHT
 10
0.0
 20
0.0
 30
0.0
  9
$UCSORGFRONT
 10
0.0
 20
0.0
 30
0.0
  9
$UCSORGBACK
 10
0.0
 20
0.0
 30
0.0
  9
$PUCSBASE
  2

  9
$PUCSNAME
  2

  9
$PUCSORG
 10
0.0
 20
0.0
 30
0.0
  9
$PUCSXDIR
 10
1.0
 20
0.0
 30
0.0
  9
$PUCSYDIR
 10
0.0
 20
1.0
 30
0.0
  9
$PUCSORTHOREF
  2

  9
$PUCSORTHOVIEW
 70
     0
  9
$PUCSORGTOP
 10
0.0
 20
0.0
 30
0.0
  9
$PUCSORGBOTTOM
 10
0.0
 20
0.0
 30
0.0
  9
$PUCSORGLEFT
 10
0.0
 20
0.0
 30
0.0
  9
$PUCSORGRIGHT
 10
0.0
 20
0.0
 30
0.0
  9
$PUCSORGFRONT
 10
0.0
 20
0.0
 30
0.0
  9
$PUCSORGBACK
 10
0.0
 20
0.0
 30
0.0
  9
$USERI1
 70
     0
  9
$USERI2
 70
     0
  9
$USERI3
 70
     0
  9
$USERI4
 70
     0
  9
$USERI5
 70
     0
  9
$USERR1
 40
0.0
  9
$USERR2
 40
0.0
  9
$USERR3
 40
0.0
  9
$USERR4
 40
0.0
  9
$USERR5
 40
0.0
  9
$WORLDVIEW
 70
     1
  9
$SHADEDGE
 70
     3
  9
$SHADEDIF
 70
    70
  9
$TILEMODE
 70
     1
  9
$MAXACTVP
 70
    64
  9
$PINSBASE
 10
0.0
 20
0.0
 30
0.0
  9
$PLIMCHECK
 70
     0
  9
$PEXTMIN
 10
1.0000000000E+20
 20
1.0000000000E+20
 30
1.0000000000E+20
  9
$PEXTMAX
 10
-1.0000000000E+20
 20
-1.0000000000E+20
 30
-1.0000000000E+20
  9
$PLIMMIN
 10
0.0
 20
0.0
  9
$PLIMMAX
 10
420.0
 20
297.0
  9
$UNITMODE
 70
     0
  9
$VISRETAIN
 70
     1
  9
$PLINEGEN
 70
     0
  9
$PSLTSCALE
 70
     1
  9
$TREEDEPTH
 70
  3020
  9
$CMLSTYLE
  2
Standard
  9
$CMLJUST
 70
     0
  9
$CMLSCALE
 40
20.0
  9
$PROXYGRAPHICS
 70
     1
  9
$MEASUREMENT
 70
     1
  9
$CELWEIGHT
370
    -1
  9
$ENDCAPS
280
     0
  9
$JOINSTYLE
280
     0
  9
$LWDISPLAY
290
     1
  9
$INSUNITS
 70
     4
  9
$HYPERLINKBASE
  1

  9
$STYLESHEET
  1

  9
$XEDIT
290
     1
  9
$CEPSNTYPE
380
     0
  9
$PSTYLEMODE
290
     1
  9
$FINGERPRINTGUID
  2
{e5456a01-e51d-43c0-8513-d57e753fbf43}
  9
$VERSIONGUID
  2
{FAEB1C32-E019-11D5-929B-00C0DF256EC4}
  9
$EXTNAMES
290
     1
  9
$PSVPSCALE
 40
0.0
  9
$OLESTARTUP
290
     0
  0
ENDSEC
  0
SECTION
  2
CLASSES
  0
CLASS
  1
ACDBDICTIONARYWDFLT
  2
AcDbDictionaryWithDefault
  3
ObjectDBX Classes
 90
        0
280
     0
281
     0
  0
CLASS
  1
VISUALSTYLE
  2
AcDbVisualStyle
  3
ObjectDBX Classes
 90
     4095
280
     0
281
     0
  0
CLASS
  1
MATERIAL
  2
AcDbMaterial
  3
ObjectDBX Classes
 90
     1153
280
     0
281
     0
  0
CLASS
  1
SCALE
  2
AcDbScale
  3
ObjectDBX Classes
 90
     1153
280
     0
281
     0
  0
CLASS
  1
TABLESTYLE
  2
AcDbTableStyle
  3
ObjectDBX Classes
 90
     4095
280
     0
281
     0
  0
CLASS
  1
MLEADERSTYLE
  2
AcDbMLeaderStyle
  3
ACDB_MLEADERSTYLE_CLASS
 90
     4095
280
     0
281
     0
  0
CLASS
  1
SUN
  2
AcDbSun
  3
SCENEOE
 90
     1153
280
     0
281
     0
  0
CLASS
  1
ACDBPLACEHOLDER
  2
AcDbPlaceHolder
  3
ObjectDBX Classes
 90
        0
280
     0
281
     0
  0
CLASS
  1
LAYOUT
  2
AcDbLayout
  3
ObjectDBX Classes
 90
        0
280
     0
281
     0
  0
ENDSEC
  0
SECTION
  2
TABLES
  0
TABLE
  2
VPORT
  5
8
330
0
100
AcDbSymbolTable
 70
     1
  0
VPORT
  5
29
330
8
100
AcDbSymbolTableRecord
100
AcDbViewportTableRecord
  2
*Active
 70
     0
 10
0.0
 20
0.0
 11
1.0
 21
1.0
 12
139.7
 22
107.95
 13
0.0
 23
0.0
 14
10.0
 24
10.0
 15
10.0
 25
10.0
 16
0.0
 26
0.0
 36
1.0
 17
0.0
 27
0.0
 37
0.0
 40
215.9
 41
1.2941176471
 42
50.0
 43
0.0
 44
0.0
 50
0.0
 51
0.0
 71
     0
 72
  2000
 73
     1
 74
     3
 75
     0
 76
     0
 77
     0
 78
     0
281
     0
 65
     1
110
0.0
120
0.0
130
0.0
111
1.0
121
0.0
131
0.0
112
0.0
122
1.0
132
0.0
 79
     0
146
0.0
  0
ENDTAB
  0
TABLE
  2
LTYPE
  5
5
330
0
100
AcDbSymbolTable
 70
     6
  0
LTYPE
  5
14
330
5
100
AcDbSymbolTableRecord
100
AcDbLinetypeTableRecord
  2
ByBlock
 70
     0
  3

 72
    65
 73
     0
 40
0.0
  0
LTYPE
  5
15
330
5
100
AcDbSymbolTableRecord
100
AcDbLinetypeTableRecord
  2
ByLayer
 70
     0
  3

 72
    65
 73
     0
 40
0.0
  0
LTYPE
  5
16
330
5
100
AcDbSymbolTableRecord
100
AcDbLinetypeTableRecord
  2
Continuous
 70
     0
  3
Solid line
 72
    65
 73
     0
 40
0.0
  0
LTYPE
  5
6E
330
5
100
AcDbSymbolTableRecord
100
AcDbLinetypeTableRecord
  2
HIDDEN
 70
     0
  3
Hidden __ __ __ __ __ __ __ __ __ __ __ __ __ __
 72
    65
 73
     2
 40
1.905
 49
1.27
 74
     0
 49
-0.635
 74
     0
  0
LTYPE
  5
6F
330
5
100
AcDbSymbolTableRecord
100
AcDbLinetypeTableRecord
  2
PHANTOM
 70
     0
  3
Phantom ______  __  __  ______  __  __  ______
 72
    65
 73
     6
 40
12.7
 49
6.35
 74
     0
 49
-1.27
 74
     0
 49
1.27
 74
     0
 49
-1.27
 74
     0
 49
1.27
 74
     0
 49
-1.27
 74
     0
  0
LTYPE
  5
70
330
5
100
AcDbSymbolTableRecord
100
AcDbLinetypeTableRecord
  2
CENTER
 70
     0
  3
Center ____ _ ____ _ ____ _ ____ _ ____ _ ____
 72
    65
 73
     4
 40
10.16
 49
6.35
 74
     0
 49
-1.27
 74
     0
 49
1.27
 74
     0
 49
-1.27
 74
     0
  0
LTYPE
  5
71
330
5
100
AcDbSymbolTableRecord
100
AcDbLinetypeTableRecord
  2
CENTERX2
 70
     0
  3
Center (2x) ________  __  ________  __  _____
 72
    65
 73
     4
 40
20.32
 49
12.7
 74
     0
 49
-2.54
 74
     0
 49
2.54
 74
     0
 49
-2.54
 74
     0
  0
LTYPE
  5
72
330
5
100
AcDbSymbolTableRecord
100
AcDbLinetypeTableRecord
  2
DOT2
 70
     0
  3
Dot (.5x) ........................................
 72
    65
 73
     2
 40
0.635
 49
0.0
 74
     0
 49
-0.635
 74
     0
  0
ENDTAB
  0
TABLE
  2
LAYER
  5
2
330
0
100
AcDbSymbolTable
 70
    17
  0
LAYER
  5
10
330
2
100
AcDbSymbolTableRecord
100
AcDbLayerTableRecord
  2
0
 70
     0
 62
     7
  6
Continuous
370
    -3
390
F
  0
LAYER
  5
73
330
2
100
AcDbSymbolTableRecord
100
AcDbLayerTableRecord
  2
FORMAT
 70
     0
 62
     7
  6
Continuous
370
    -3
390
F
  0
LAYER
  5
74
330
2
100
AcDbSymbolTableRecord
100
AcDbLayerTableRecord
  2
YARDIMCI_GEOMETRI
 70
     0
 62
    -6
  6
Continuous
290
     0
370
    -3
390
F
  0
LAYER
  5
75
330
2
100
AcDbSymbolTableRecord
100
AcDbLayerTableRecord
  2
SAYFA_CERCEVESI
 70
     0
 62
     7
  6
Continuous
370
    25
390
F
  0
LAYER
  5
76
330
2
100
AcDbSymbolTableRecord
100
AcDbLayerTableRecord
  2
ANTET
 70
     0
 62
     7
  6
Continuous
370
    -3
390
F
  0
LAYER
  5
77
330
2
100
AcDbSymbolTableRecord
100
AcDbLayerTableRecord
  2
OLCU
 70
     0
 62
   150
  6
Continuous
370
    -3
390
F
  0
LAYER
  5
78
330
2
100
AcDbSymbolTableRecord
100
AcDbLayerTableRecord
  2
METIN
 70
     0
 62
    96
  6
Continuous
370
    -3
390
F
  0
LAYER
  5
79
330
2
100
AcDbSymbolTableRecord
100
AcDbLayerTableRecord
  2
BALON
 70
     0
 62
     5
  6
Continuous
370
    -3
390
F
  0
LAYER
  5
7A
330
2
100
AcDbSymbolTableRecord
100
AcDbLayerTableRecord
  2
VURGU
 70
     0
 62
     7
  6
Continuous
370
    -3
390
F
  0
LAYER
  5
7B
330
2
100
AcDbSymbolTableRecord
100
AcDbLayerTableRecord
  2
SILIK
 70
     0
 62
     7
  6
Continuous
370
    -3
390
F
  0
LAYER
  5
7C
330
2
100
AcDbSymbolTableRecord
100
AcDbLayerTableRecord
  2
MODEL
 70
     0
 62
     7
  6
Continuous
370
    -3
390
F
  0
LAYER
  5
7D
330
2
100
AcDbSymbolTableRecord
100
AcDbLayerTableRecord
  2
DETAYLANDıRMA
 70
     0
 62
   190
  6
Continuous
370
    -3
390
F
  0
LAYER
  5
7E
330
2
100
AcDbSymbolTableRecord
100
AcDbLayerTableRecord
  2
TOLERANS
 70
     0
 62
   230
  6
Continuous
370
    -3
390
F
  0
LAYER
  5
7F
330
2
100
AcDbSymbolTableRecord
100
AcDbLayerTableRecord
  2
MERKEZ_CIZGILERI
 70
     0
 62
    30
  6
Continuous
370
    -3
390
F
  0
LAYER
  5
80
330
2
100
AcDbSymbolTableRecord
100
AcDbLayerTableRecord
  2
KESIT-DETAY_CIZGILERI
 70
     0
 62
     7
  6
Continuous
370
    -3
390
F
  0
LAYER
  5
81
330
2
100
AcDbSymbolTableRecord
100
AcDbLayerTableRecord
  2
\U+041E\U+0421\U+0415\U+0412\U+042B\U+0415
 70
     0
 62
     7
  6
Continuous
370
    -3
390
F
  0
LAYER
  5
82
330
2
100
AcDbSymbolTableRecord
100
AcDbLayerTableRecord
  2
\U+0412\U+041E\U+0414\U+042F\U+041D\U+042B\U+0415_\U+0417\U+041D\U+0410\U+041A\U+0418
 70
     0
 62
    11
  6
Continuous
370
    -3
390
F
  0
ENDTAB
  0
TABLE
  2
STYLE
  5
3
330
0
100
AcDbSymbolTable
 70
     1
  0
STYLE
  5
11
330
3
100
AcDbSymbolTableRecord
100
AcDbTextStyleTableRecord
  2
Standard
 70
     0
 40
0.0
 41
1.0
 50
0.0
 71
     0
 42
3.5
  3
txt
  4

  0
ENDTAB
  0
TABLE
  2
VIEW
  5
6
330
0
100
AcDbSymbolTable
 70
     0
  0
ENDTAB
  0
TABLE
  2
UCS
  5
7
330
0
100
AcDbSymbolTable
 70
     0
  0
ENDTAB
  0
TABLE
  2
APPID
  5
9
330
0
100
AcDbSymbolTable
 70
     1
  0
APPID
  5
12
330
9
100
AcDbSymbolTableRecord
100
AcDbRegAppTableRecord
  2
ACAD
 70
     0
  0
ENDTAB
  0
TABLE
  2
DIMSTYLE
  5
A
330
0
100
AcDbSymbolTable
 70
     1
100
AcDbDimStyleTable
  0
DIMSTYLE
105
27
330
A
100
AcDbSymbolTableRecord
100
AcDbDimStyleTableRecord
  2
ISO-25
 70
     0
 41
2.5
 42
0.625
 43
3.75
 44
1.25
 73
     0
 74
     0
 77
     1
 78
     8
140
2.5
141
2.5
143
0.0393700787
147
0.625
171
     3
172
     1
178
     0
271
     2
272
     2
274
     3
278
    44
283
     0
284
     8
340
11
  0
ENDTAB
  0
TABLE
  2
BLOCK_RECORD
  5
1
330
0
100
AcDbSymbolTable
 70
     2
  0
BLOCK_RECORD
  5
1F
330
1
100
AcDbSymbolTableRecord
100
AcDbBlockTableRecord
  2
*Model_Space
340
22
  0
BLOCK_RECORD
  5
1B
330
1
100
AcDbSymbolTableRecord
100
AcDbBlockTableRecord
  2
*Paper_Space
340
1E
  0
BLOCK_RECORD
  5
23
330
1
100
AcDbSymbolTableRecord
100
AcDbBlockTableRecord
  2
*Paper_Space0
340
26
  0
BLOCK_RECORD
  5
85
330
1
100
AcDbSymbolTableRecord
100
AcDbBlockTableRecord
  2
SW_CENTERMARKSYMBOL_0
340
0
102
{BLKREFS
331
90
102
}
  0
ENDTAB
  0
ENDSEC
  0
SECTION
  2
BLOCKS
  0
BLOCK
  5
20
330
1F
100
AcDbEntity
  8
0
100
AcDbBlockBegin
  2
*Model_Space
 70
     0
 10
0.0
 20
0.0
 30
0.0
  3
*Model_Space
  1

  0
ENDBLK
  5
21
330
1F
100
AcDbEntity
  8
0
100
AcDbBlockEnd
  0
BLOCK
  5
1C
330
1B
100
AcDbEntity
 67
     1
  8
0
100
AcDbBlockBegin
  2
*Paper_Space
 70
     0
 10
0.0
 20
0.0
 30
0.0
  3
*Paper_Space
  1

  0
ENDBLK
  5
1D
330
1B
100
AcDbEntity
 67
     1
  8
0
100
AcDbBlockEnd
  0
BLOCK
  5
24
330
23
100
AcDbEntity
  8
0
100
AcDbBlockBegin
  2
*Paper_Space0
 70
     0
 10
0.0
 20
0.0
 30
0.0
  3
*Paper_Space0
  1

  0
ENDBLK
  5
25
330
23
100
AcDbEntity
  8
0
100
AcDbBlockEnd
  0
BLOCK
  5
86
330
85
100
AcDbEntity
  8
0
100
AcDbBlockBegin
  2
SW_CENTERMARKSYMBOL_0
 70
     0
 10
0.0
 20
0.0
 30
0.0
  3
SW_CENTERMARKSYMBOL_0
  1

  0
LINE
  5
88
330
85
100
AcDbEntity
  8
FORMAT
 62
     0
100
AcDbLine
 10
0.0
 20
0.0
 30
0.0
 11
0.0
 21
2.5
 31
0.0
  0
LINE
  5
89
330
85
100
AcDbEntity
  8
FORMAT
 62
     0
100
AcDbLine
 10
0.0
 20
0.0
 30
0.0
 11
-2.5
 21
0.0
 31
0.0
  0
LINE
  5
8A
330
85
100
AcDbEntity
  8
FORMAT
 62
     0
100
AcDbLine
 10
0.0
 20
0.0
 30
0.0
 11
0.0
 21
-2.5
 31
0.0
  0
LINE
  5
8B
330
85
100
AcDbEntity
  8
FORMAT
 62
     0
100
AcDbLine
 10
0.0
 20
0.0
 30
0.0
 11
2.5
 21
0.0
 31
0.0
  0
LINE
  5
8C
330
85
100
AcDbEntity
  8
FORMAT
 62
     0
100
AcDbLine
 10
0.0
 20
5.0
 30
0.0
 11
0.0
 21
180.0
 31
0.0
  0
LINE
  5
8D
330
85
100
AcDbEntity
  8
FORMAT
 62
     0
100
AcDbLine
 10
-5.0
 20
0.0
 30
0.0
 11
-180.0
 21
0.0
 31
0.0
  0
LINE
  5
8E
330
85
100
AcDbEntity
  8
FORMAT
 62
     0
100
AcDbLine
 10
0.0
 20
-5.0
 30
0.0
 11
0.0
 21
-180.0
 31
0.0
  0
LINE
  5
8F
330
85
100
AcDbEntity
  8
FORMAT
 62
     0
100
AcDbLine
 10
5.0
 20
0.0
 30
0.0
 11
180.0
 21
0.0
 31
0.0
  0
ENDBLK
  5
87
330
85
100
AcDbEntity
  8
0
100
AcDbBlockEnd
  0
ENDSEC
  0
SECTION
  2
ENTITIES
  0
CIRCLE
  5
83
330
1F
100
AcDbEntity
  8
0
  6
Continuous
 62
     7
370
    25
100
AcDbCircle
 10
128.9229348054
 20
107.9978248159
 30
0.0
 40
177.4999999999999
  0
CIRCLE
  5
84
330
1F
100
AcDbEntity
  8
0
  6
Continuous
 62
     7
370
    25
100
AcDbCircle
 10
128.9229348054
 20
107.9978248159
 30
0.0
 40
156.3999999999999
  0
INSERT
  5
90
330
1F
100
AcDbEntity
  8
FORMAT
 62
     7
100
AcDbBlockReference
  2
SW_CENTERMARKSYMBOL_0
 10
128.9229348054
 20
107.9978248159
 30
0.0
  0
ARC
  5
91
330
1F
100
AcDbEntity
  8
0
  6
Continuous
 62
     7
370
    25
100
AcDbCircle
 10
123.3161905042
 20
228.912357117
 30
0.0
 40
710.0
100
AcDbArc
 50
255.9892951157
 51
270.0
  0
ARC
  5
92
330
1F
100
AcDbEntity
  8
0
  6
Continuous
 62
     7
370
    25
100
AcDbCircle
 10
134.5296791066
 20
228.912357117
 30
0.0
 40
710.0
100
AcDbArc
 50
270.0
 51
284.0107048843
  0
LINE
  5
93
330
1F
100
AcDbEntity
  8
0
  6
Continuous
 62
     7
370
    25
100
AcDbLine
 10
123.3161905042
 20
-481.087642883
 30
0.0
 11
134.5296791066
 21
-481.087642883
 31
0.0
  0
LINE
  5
94
330
1F
100
AcDbEntity
  8
0
  6
Continuous
 62
     7
370
    25
100
AcDbLine
 10
-48.5770651946
 20
-270.2822116372
 30
0.0
 11
-48.5770651946
 21
-459.9655048043
 31
0.0
  0
LINE
  5
95
330
1F
100
AcDbEntity
  8
0
  6
Continuous
 62
     7
370
    25
100
AcDbLine
 10
306.4229348054
 20
-459.9655048043
 30
0.0
 11
306.4229348054
 21
-270.2822116372
 31
0.0
  0
LINE
  5
96
330
1F
100
AcDbEntity
  8
0
  6
Continuous
 62
     7
370
    25
100
AcDbLine
 10
128.9229348054
 20
-459.9655048043
 30
0.0
 11
306.4229348054
 21
-459.9655048043
 31
0.0
  0
LINE
  5
97
330
1F
100
AcDbEntity
  8
0
  6
Continuous
 62
     7
370
    25
100
AcDbLine
 10
-48.5770651946
 20
-459.9655048043
 30
0.0
 11
128.9229348054
 21
-459.9655048043
 31
0.0
  0
LINE
  5
98
330
1F
100
AcDbEntity
  8
0
  6
Continuous
 62
     7
370
    25
100
AcDbLine
 10
128.9229348054
 20
-270.2822116372
 30
0.0
 11
306.4229348054
 21
-270.2822116372
 31
0.0
  0
LINE
  5
99
330
1F
100
AcDbEntity
  8
0
  6
Continuous
 62
     7
370
    25
100
AcDbLine
 10
-48.5770651946
 20
-270.2822116372
 30
0.0
 11
128.9229348054
 21
-270.2822116372
 31
0.0
  0
LINE
  5
9A
330
1F
100
AcDbEntity
  8
0
  6
Continuous
 62
     7
370
    25
100
AcDbLine
 10
306.4229348054
 20
400.3026287805
 30
0.0
 11
306.4229348054
 21
589.9859219476
 31
0.0
  0
LINE
  5
9B
330
1F
100
AcDbEntity
  8
0
  6
Continuous
 62
     7
370
    25
100
AcDbLine
 10
-48.5770651946
 20
589.9859219476
 30
0.0
 11
-48.5770651946
 21
400.3026287805
 31
0.0
  0
ARC
  5
9C
330
1F
100
AcDbEntity
  8
0
  6
Continuous
 62
     7
370
    25
100
AcDbCircle
 10
134.5296791066
 20
-98.8919399737
 30
0.0
 40
710.0
100
AcDbArc
 50
75.9892951157
 51
90.0
  0
ARC
  5
9D
330
1F
100
AcDbEntity
  8
0
  6
Continuous
 62
     7
370
    25
100
AcDbCircle
 10
123.3161905042
 20
-98.8919399737
 30
0.0
 40
710.0
100
AcDbArc
 50
90.0
 51
104.0107048843
  0
LINE
  5
9E
330
1F
100
AcDbEntity
  8
0
  6
Continuous
 62
     7
370
    25
100
AcDbLine
 10
134.5296791066
 20
611.1080600263
 30
0.0
 11
123.3161905042
 21
611.1080600263
 31
0.0
  0
LINE
  5
9F
330
1F
100
AcDbEntity
  8
0
  6
Continuous
 62
     7
370
    25
100
AcDbLine
 10
306.4229348054
 20
400.3026287805
 30
0.0
 11
-48.5770651946
 21
400.3026287805
 31
0.0
  0
LINE
  5
A0
330
1F
100
AcDbEntity
  8
0
  6
Continuous
 62
     7
370
    25
100
AcDbLine
 10
306.4229348054
 20
589.9859219476
 30
0.0
 11
-48.5770651946
 21
589.9859219476
 31
0.0
  0
ARC
  5
A1
330
1F
100
AcDbEntity
  8
0
  6
Continuous
 62
     7
370
    25
100
AcDbCircle
 10
1170.3356119391
 20
113.6045691171
 30
0.0
 40
710.0
100
AcDbArc
 50
165.9892951157
 51
180.0
  0
ARC
  5
A2
330
1F
100
AcDbEntity
  8
0
  6
Continuous
 62
     7
370
    25
100
AcDbCircle
 10
1170.3356119391
 20
102.3910805148
 30
0.0
 40
710.0
100
AcDbArc
 50
180.0
 51
194.0107048843
  0
LINE
  5
A3
330
1F
100
AcDbEntity
  8
0
  6
Continuous
 62
     7
370
    25
100
AcDbLine
 10
460.3356119391
 20
113.6045691171
 30
0.0
 11
460.3356119391
 21
102.3910805148
 31
0.0
  0
LINE
  5
A4
330
1F
100
AcDbEntity
  8
0
  6
Continuous
 62
     7
370
    25
100
AcDbLine
 10
671.1410431849
 20
285.4978248159
 30
0.0
 11
481.4577500178
 21
285.4978248159
 31
0.0
  0
LINE
  5
A5
330
1F
100
AcDbEntity
  8
0
  6
Continuous
 62
     7
370
    25
100
AcDbLine
 10
481.4577500178
 20
-69.5021751841
 30
0.0
 11
671.1410431849
 21
-69.5021751841
 31
0.0
  0
LINE
  5
A6
330
1F
100
AcDbEntity
  8
0
  6
Continuous
 62
     7
370
    25
100
AcDbLine
 10
481.4577500178
 20
285.4978248159
 30
0.0
 11
481.4577500178
 21
-69.5021751841
 31
0.0
  0
LINE
  5
A7
330
1F
100
AcDbEntity
  8
0
  6
Continuous
 62
     7
370
    25
100
AcDbLine
 10
671.1410431849
 20
285.4978248159
 30
0.0
 11
671.1410431849
 21
-69.5021751841
 31
0.0
  0
ARC
  5
A8
330
1F
100
AcDbEntity
  8
0
  6
Continuous
 62
     7
370
    25
100
AcDbCircle
 10
-889.3775055527
 20
102.3910805148
 30
0.0
 40
710.0
100
AcDbArc
 50
345.9892951157
 51
0.0
  0
ARC
  5
A9
330
1F
100
AcDbEntity
  8
0
  6
Continuous
 62
     7
370
    25
100
AcDbCircle
 10
-889.3775055527
 20
113.6045691171
 30
0.0
 40
710.0
100
AcDbArc
 50
0.0
 51
14.0107048843
  0
LINE
  5
AA
330
1F
100
AcDbEntity
  8
0
  6
Continuous
 62
     7
370
    25
100
AcDbLine
 10
-179.3775055527
 20
102.3910805148
 30
0.0
 11
-179.3775055527
 21
113.6045691171
 31
0.0
  0
LINE
  5
AB
330
1F
100
AcDbEntity
  8
0
  6
Continuous
 62
     7
370
    25
100
AcDbLine
 10
-390.1829367985
 20
-69.5021751841
 30
0.0
 11
-200.4996436314
 21
-69.5021751841
 31
0.0
  0
LINE
  5
AC
330
1F
100
AcDbEntity
  8
0
  6
Continuous
 62
     7
370
    25
100
AcDbLine
 10
-200.4996436314
 20
285.4978248159
 30
0.0
 11
-390.1829367985
 21
285.4978248159
 31
0.0
  0
LINE
  5
AD
330
1F
100
AcDbEntity
  8
0
  6
Continuous
 62
     7
370
    25
100
AcDbLine
 10
-200.4996436314
 20
-69.5021751841
 30
0.0
 11
-200.4996436314
 21
285.4978248159
 31
0.0
  0
LINE
  5
AE
330
1F
100
AcDbEntity
  8
0
  6
Continuous
 62
     7
370
    25
100
AcDbLine
 10
-390.1829367985
 20
-69.5021751841
 30
0.0
 11
-390.1829367985
 21
285.4978248159
 31
0.0
  0
LINE
  5
AF
330
1F
100
AcDbEntity
  8
0
  6
Continuous
 62
     7
370
    25
100
AcDbLine
 10
449.2197729223
 20
-479.0091862288
 30
0.0
 11
583.3461157985
 21
-556.4386758383
 31
0.0
  0
LINE
  5
B0
330
1F
100
AcDbEntity
  8
0
  6
Continuous
 62
     7
370
    25
100
AcDbLine
 10
760.8316908414
 20
-248.9913296931
 30
0.0
 11
626.7053479652
 21
-171.5618400837
 31
0.0
  0
LWPOLYLINE
  5
B1
330
1F
100
AcDbEntity
  8
0
  6
Continuous
 62
     7
370
    25
100
AcDbPolyline
 90
      142
 70
   128
 43
0.0
 10
537.9625604437
 20
-470.221507266
 10
543.5537005264
 20
-466.8499322995
 10
549.1337399179
 20
-463.1972942827
 10
554.6915999667
 20
-459.2708451901
 10
560.216246056
 20
-455.0783806231
 10
565.6967095124
 20
-450.6282243319
 10
571.122109383
 20
-445.92921169
 10
576.4816740387
 20
-440.9906721519
 10
581.7647625597
 20
-435.8224107308
 10
586.960885863
 20
-430.4346885314
 10
592.0597275267
 20
-424.8382023773
 10
597.0511642726
 20
-419.0440635738
 10
601.9252860651
 20
-413.0637758472
 10
606.6724157865
 20
-406.9092125051
 10
611.2831284503
 20
-400.5925928635
 10
615.7482699131
 20
-394.1264579858
 10
620.05897505
 20
-387.5236457844
 10
624.2066853549
 20
-380.7972655316
 10
628.1831659329
 20
-373.960671833
 10
631.98052185
 20
-367.0274381124
 10
635.5912138073
 20
-360.0113296636
 10
639.0080731104
 20
-352.9262763205
 10
642.2243159013
 20
-345.7863448007
 10
645.2335566276
 20
-338.6057107773
 10
648.0298207205
 20
-331.3986307345
 10
650.6075564564
 20
-324.1794136626
 10
652.9616459797
 20
-316.9623926489
 10
655.0874154635
 20
-309.7618964205
 10
656.9806443892
 20
-302.5922208962
 10
658.637573926
 20
-295.4676008031
 10
660.0549143938
 20
-288.402181415
 10
661.2298517943
 20
-281.4099904678
 10
662.1600533979
 20
-274.5049103097
 10
662.8436723755
 20
-267.7006503381
 10
663.279351465
 20
-261.0107197813
 10
663.4662256657
 20
-254.4484008771
 10
663.4039239564
 20
-248.0267225024
 10
663.0925700311
 20
-241.7584343051
 10
662.5327820544
 20
-235.6559813913
 10
661.7256714335
 20
-229.7314796162
 10
660.6728406118
 20
-223.9966915299
 10
659.3763798874
 20
-218.4630030232
 10
657.8388632631
 20
-213.1414007223
 10
656.0633433358
 20
-208.0424501762
 10
654.053345236
 20
-203.176274879
 10
651.8128596289
 20
-198.5525361715
 10
649.3463347912
 20
-194.1804140589
 10
646.6586677797
 20
-190.0685889848
 10
643.7551947085
 20
-186.2252245974
 10
640.6416801547
 20
-182.6579515409
 10
637.324305713
 20
-179.3738523057
 10
633.8096577235
 20
-176.379447167
 10
630.1047141944
 20
-173.6806812388
 10
626.2168309481
 20
-171.2829126713
 10
622.1537270168
 20
-169.1909020118
 10
617.9234693175
 20
-167.408802754
 10
613.5344566352
 20
-165.9401530908
 10
608.9954029482
 20
-164.7878688904
 10
604.3153201275
 20
-163.9542379064
 10
599.5035000444
 20
-163.4409152358
 10
594.5694961222
 20
-163.2489200333
 10
589.523104369
 20
-163.3786334876
 10
584.3743439285
 20
-163.8297980647
 10
579.133437188
 20
-164.6015180191
 10
573.8107894827
 20
-165.6922611722
 10
568.4169684368
 20
-167.0998619544
 10
562.9626829829
 20
-168.8215257048
 10
557.4587620999
 20
-170.8538342193
 10
551.916133313
 20
-173.1927525374
 10
546.3458009989
 20
-175.8336369533
 10
540.7588245366
 20
-178.7712442355
 10
535.1662963508
 20
-181.9997420367
 10
529.5793198886
 20
-185.5127204732
 10
524.0089875744
 20
-189.3032048517
 10
518.4663587876
 20
-193.3636695161
 10
512.9624379045
 20
-197.6860527898
 10
507.5081524506
 20
-202.261772981
 10
502.1143314048
 20
-207.0817454206
 10
496.7916836995
 20
-212.1364004996
 10
491.550776959
 20
-217.4157026682
 10
486.4020165185
 20
-222.9091703606
 10
481.3556247653
 20
-228.6058968052
 10
476.4216208431
 20
-234.4945716791
 10
471.60980076
 20
-240.5635035632
 10
466.9297179393
 20
-246.8006431551
 10
462.3906642523
 20
-253.1936071915
 10
458.0016515699
 20
-259.729703034
 10
453.7713938706
 20
-266.3959538694
 10
449.7082899394
 20
-273.1791244737
 10
445.8204066931
 20
-280.0657474895
 10
442.115463164
 20
-287.0421501643
 10
438.6008151744
 20
-294.0944814964
 10
435.2834407328
 20
-301.2087397346
 10
432.1699261789
 20
-308.3708001779
 10
429.2664531077
 20
-315.566443218
 10
426.5787860963
 20
-322.7813825719
 10
424.1122612586
 20
-330.0012936452
 10
421.8717756515
 20
-337.2118419729
 10
419.8617775517
 20
-344.3987116787
 10
418.0862576244
 20
-351.547633898
 10
416.5487410001
 20
-358.6444151075
 10
415.2522802757
 20
-365.6749653051
 10
414.199449454
 20
-372.625325984
 10
413.392338833
 20
-379.4816978465
 10
412.8325508563
 20
-386.230468201
 10
412.5211969311
 20
-392.8582379886
 10
412.4588952217
 20
-399.3518483858
 10
412.6457694225
 20
-405.6984069304
 10
413.0814485119
 20
-411.8853131177
 10
413.7650674896
 20
-417.9002834183
 10
414.6952690932
 20
-423.7313756653
 10
415.8702064936
 20
-429.3670127649
 10
417.2875469614
 20
-434.7960056813
 10
418.9444764983
 20
-440.0075756516
 10
420.837705424
 20
-444.9913755859
 10
422.9634749078
 20
-449.7375106109
 10
425.317564431
 20
-454.2365577148
 10
427.8953001669
 20
-458.4795844559
 10
430.6915642598
 20
-462.4581666976
 10
433.7008049862
 20
-466.1644053329
 10
436.9170477771
 20
-469.5909419682
 10
440.3339070801
 20
-472.7309735321
 10
443.9445990375
 20
-475.5782657827
 10
447.7419549545
 20
-478.1271656847
 10
451.7184355326
 20
-480.3726126332
 10
455.8661458374
 20
-482.3101485013
 10
460.1768509743
 20
-483.9359264909
 10
464.6419924372
 20
-485.2467187701
 10
469.2527051009
 20
-486.2399228823
 10
473.9998348224
 20
-486.9135669126
 10
478.8739566149
 20
-487.2663134032
 10
483.8653933608
 20
-487.2974620086
 10
488.9642350245
 20
-487.006950886
 10
494.1603583277
 20
-486.3953568185
 10
499.4434468488
 20
-485.4638940695
 10
504.8030115044
 20
-484.2144119719
 10
510.2284113751
 20
-482.6493912569
 10
515.7088748315
 20
-480.7719391283
 10
521.2335209208
 20
-478.5857830933
 10
526.7913809695
 20
-476.0952635626
 10
532.3714203611
 20
-473.305325232
 10
537.9625604437
 20
-470.221507266
  0
LWPOLYLINE
  5
B2
330
1F
100
AcDbEntity
  8
0
  6
Continuous
 62
     7
370
    25
100
AcDbPolyline
 90
       54
 70
   128
 43
0.0
 10
672.08890332
 20
-547.6509968754
 10
677.6800434026
 20
-544.2794219089
 10
683.2600827942
 20
-540.6267838921
 10
688.8179428429
 20
-536.7003347996
 10
694.3425889322
 20
-532.5078702325
 10
699.8230523886
 20
-528.0577139414
 10
705.2484522593
 20
-523.3587012994
 10
710.6080169149
 20
-518.4201617613
 10
715.891105436
 20
-513.2519003402
 10
721.0872287393
 20
-507.8641781408
 10
726.1860704029
 20
-502.2676919867
 10
731.1775071488
 20
-496.4735531833
 10
736.0516289413
 20
-490.4932654566
 10
740.7987586628
 20
-484.3387021146
 10
745.4094713265
 20
-478.0220824729
 10
749.8746127894
 20
-471.5559475952
 10
754.1853179263
 20
-464.9531353938
 10
758.3330282311
 20
-458.2267551411
 10
762.3095088092
 20
-451.3901614424
 10
766.1068647262
 20
-444.4569277218
 10
769.7175566836
 20
-437.440819273
 10
773.1344159866
 20
-430.3557659299
 10
776.3506587775
 20
-423.2158344101
 10
779.3598995039
 20
-416.0352003867
 10
782.1561635968
 20
-408.8281203439
 10
784.7338993327
 20
-401.6089032721
 10
787.0879888559
 20
-394.3918822583
 10
789.2137583397
 20
-387.19138603
 10
791.1069872654
 20
-380.0217105057
 10
792.7639168023
 20
-372.8970904126
 10
794.1812572701
 20
-365.8316710244
 10
795.3561946705
 20
-358.8394800773
 10
796.2863962741
 20
-351.9343999191
 10
796.9700152518
 20
-345.1301399475
 10
797.4056943412
 20
-338.4402093907
 10
797.592568542
 20
-331.8778904865
 10
797.5302668326
 20
-325.4562121118
 10
797.2189129074
 20
-319.1879239146
 10
796.6591249307
 20
-313.0854710007
 10
795.8520143097
 20
-307.1609692257
 10
794.799183488
 20
-301.4261811393
 10
793.5027227636
 20
-295.8924926326
 10
791.9652061393
 20
-290.5708903317
 10
790.189686212
 20
-285.4719397856
 10
788.1796881122
 20
-280.6057644885
 10
785.9392025051
 20
-275.982025781
 10
783.4726776674
 20
-271.6099036683
 10
780.785010656
 20
-267.4980785942
 10
777.8815375848
 20
-263.6547142068
 10
774.7680230309
 20
-260.0874411503
 10
771.4506485893
 20
-256.8033419152
 10
767.9360005997
 20
-253.8089367764
 10
764.2310570706
 20
-251.1101708483
 10
760.8316908414
 20
-248.9913296931
  0
LWPOLYLINE
  5
B3
330
1F
100
AcDbEntity
  8
0
  6
Continuous
 62
     7
370
    25
100
AcDbPolyline
 90
       19
 70
   128
 43
0.0
 10
583.3461157985
 20
-556.4386758383
 10
585.8447784088
 20
-557.8021022427
 10
589.9924887137
 20
-559.7396381108
 10
594.3031938506
 20
-561.3654161003
 10
598.7683353134
 20
-562.6762083795
 10
603.3790479772
 20
-563.6694124917
 10
608.1261776986
 20
-564.343056522
 10
613.0002994911
 20
-564.6958030126
 10
617.991736237
 20
-564.726951618
 10
623.0905779007
 20
-564.4364404955
 10
628.286701204
 20
-563.8248464279
 10
633.569789725
 20
-562.8933836789
 10
638.9293543807
 20
-561.6439015813
 10
644.3547542513
 20
-560.0788808663
 10
649.8352177077
 20
-558.2014287377
 10
655.359863797
 20
-556.0152727028
 10
660.9177238458
 20
-553.524753172
 10
666.4977632373
 20
-550.7348148415
 10
672.08890332
 20
-547.6509968754
  0
LWPOLYLINE
  5
B4
330
1F
100
AcDbEntity
  8
0
  6
Continuous
 62
     7
370
    25
100
AcDbPolyline
 90
      133
 70
   128
 43
0.0
 10
537.9625604437
 20
-452.9924961352
 10
543.224715915
 20
-449.8100697468
 10
548.4749509117
 20
-446.3455551865
 10
553.7013719628
 20
-442.6068006939
 10
558.8921395437
 20
-438.6022757506
 10
564.0354948963
 20
-434.3410518934
 10
569.1197866664
 20
-429.832782165
 10
574.1334972979
 20
-425.0876792464
 10
579.0652691236
 20
-420.1164923218
 10
583.9039300941
 20
-414.9304827286
 10
588.638519086
 20
-409.5413984464
 10
593.2583107325
 20
-403.9614474844
 10
597.7528397196
 20
-398.2032702264
 10
602.1119244936
 20
-392.2799107957
 10
606.3256903254
 20
-386.2047875067
 10
610.3845916801
 20
-379.9916624676
 10
614.2794338406
 20
-373.654610405
 10
618.0013937368
 20
-367.2079867799
 10
621.5420399324
 20
-360.6663952684
 10
624.893351725
 20
-354.0446546793
 10
628.0477373154
 20
-347.3577653846
 10
630.9980510057
 20
-340.6208753395
 10
633.7376093866
 20
-333.8492457666
 10
636.260206477
 20
-327.058216585
 10
638.5601277834
 20
-320.26317166
 10
640.6321632441
 20
-313.4795039538
 10
642.4716190324
 20
-306.7225806557
 10
644.0743281894
 20
-300.0077083702
 10
645.4366600633
 20
-293.3500984427
 10
646.5555285342
 20
-286.764832501
 10
647.4283990052
 20
-280.2668282906
 10
648.0532941439
 20
-273.8708058809
 10
648.4287983619
 20
-267.59125432
 10
648.5540610213
 20
-261.4423988117
 10
648.4287983619
 20
-255.4381684916
 10
648.0532941439
 20
-249.5921648724
 10
647.4283990052
 20
-243.9176310326
 10
646.5555285342
 20
-238.4274216165
 10
645.4366600633
 20
-233.1339737142
 10
644.0743281894
 20
-228.0492786879
 10
642.4716190324
 20
-223.184855007
 10
640.6321632441
 20
-218.551722156
 10
638.5601277834
 20
-214.1603756708
 10
636.260206477
 20
-210.0207633636
 10
633.7376093866
 20
-206.1422627877
 10
630.9980510057
 20
-202.5336599945
 10
628.0477373154
 20
-199.2031296298
 10
624.893351725
 20
-196.1582164162
 10
621.5420399324
 20
-193.4058180614
 10
618.0013937368
 20
-190.952169633
 10
614.2794338406
 20
-188.8028294339
 10
610.3845916801
 20
-186.9626664108
 10
606.3256903254
 20
-185.435849125
 10
602.1119244936
 20
-184.2258363086
 10
597.7528397196
 20
-183.3353690299
 10
593.2583107325
 20
-182.7664644836
 10
588.638519086
 20
-182.5204114215
 10
583.9039300941
 20
-182.5977672329
 10
579.0652691236
 20
-182.9983566821
 10
574.1334972979
 20
-183.7212723051
 10
569.1197866664
 20
-184.7648764655
 10
564.0354948963
 20
-186.1268050642
 10
558.8921395437
 20
-187.8039728949
 10
553.7013719628
 20
-189.792580633
 10
548.4749509117
 20
-192.0881234424
 10
543.224715915
 20
-194.6854011803
 10
537.9625604437
 20
-197.5785301773
 10
532.7004049724
 20
-200.7609565657
 10
527.4501699758
 20
-204.225471126
 10
522.2237489246
 20
-207.9642256186
 10
517.0329813437
 20
-211.968750562
 10
511.8896259912
 20
-216.2299744191
 10
506.8053342211
 20
-220.7382441475
 10
501.7916235896
 20
-225.4833470661
 10
496.8598517639
 20
-230.4545339907
 10
492.0211907934
 20
-235.6405435839
 10
487.2866018015
 20
-241.0296278662
 10
482.6668101549
 20
-246.6095788281
 10
478.1722811678
 20
-252.3677560862
 10
473.8131963939
 20
-258.2911155168
 10
469.5994305621
 20
-264.3662388058
 10
465.5405292074
 20
-270.5793638449
 10
461.6456870468
 20
-276.9164159075
 10
457.9237271506
 20
-283.3630395326
 10
454.383080955
 20
-289.9046310441
 10
451.0317691625
 20
-296.5263716333
 10
447.8773835721
 20
-303.2132609279
 10
444.9270698817
 20
-309.950150973
 10
442.1875115009
 20
-316.7217805459
 10
439.6649144104
 20
-323.5128097275
 10
437.3649931041
 20
-330.3078546525
 10
435.2929576434
 20
-337.0915223587
 10
433.453501855
 20
-343.8484456568
 10
431.8507926981
 20
-350.5633179424
 10
430.4884608242
 20
-357.2209278698
 10
429.3695923533
 20
-363.8061938115
 10
428.4967218823
 20
-370.3041980219
 10
427.8718267435
 20
-376.7002204316
 10
427.4963225256
 20
-382.9797719925
 10
427.3710598662
 20
-389.1286275008
 10
427.4963225256
 20
-395.132857821
 10
427.8718267435
 20
-400.9788614402
 10
428.4967218823
 20
-406.65339528
 10
429.3695923533
 20
-412.1436046961
 10
430.4884608242
 20
-417.4370525983
 10
431.8507926981
 20
-422.5217476247
 10
433.453501855
 20
-427.3861713055
 10
435.2929576434
 20
-432.0193041565
 10
437.3649931041
 20
-436.4106506418
 10
439.6649144104
 20
-440.550262949
 10
442.1875115009
 20
-444.4287635248
 10
444.9270698817
 20
-448.0373663181
 10
447.8773835721
 20
-451.3678966827
 10
451.0317691625
 20
-454.4128098963
 10
454.383080955
 20
-457.1652082511
 10
457.9237271506
 20
-459.6188566795
 10
461.6456870468
 20
-461.7681968786
 10
465.5405292074
 20
-463.6083599017
 10
469.5994305621
 20
-465.1351771875
 10
473.8131963939
 20
-466.3451900039
 10
478.1722811678
 20
-467.2356572826
 10
482.6668101549
 20
-467.8045618289
 10
487.2866018015
 20
-468.050614891
 10
492.0211907934
 20
-467.9732590796
 10
496.8598517639
 20
-467.5726696304
 10
501.7916235896
 20
-466.8497540074
 10
506.8053342211
 20
-465.8061498471
 10
511.8896259912
 20
-464.4442212484
 10
517.0329813437
 20
-462.7670534177
 10
522.2237489246
 20
-460.7784456795
 10
527.4501699758
 20
-458.4829028701
 10
532.7004049724
 20
-455.8856251322
 10
537.9625604437
 20
-452.9924961352
  0
LWPOLYLINE
  5
B5
330
1F
100
AcDbEntity
  8
0
  6
Continuous
 62
     7
370
    25
100
AcDbPolyline
 90
       30
 70
   128
 43
0.0
 10
647.8544658235
 20
-276.188086227
 10
644.5532220699
 20
-278.5835272913
 10
639.362454489
 20
-282.5880522346
 10
634.2190991364
 20
-286.8492760918
 10
629.1348073664
 20
-291.3575458201
 10
624.1210967349
 20
-296.1026487388
 10
619.1893249092
 20
-301.0738356633
 10
614.3506639387
 20
-306.2598452566
 10
609.6160749467
 20
-311.6489295388
 10
604.9962833002
 20
-317.2288805008
 10
600.5017543131
 20
-322.9870577588
 10
596.1426695391
 20
-328.9104171895
 10
591.9289037074
 20
-334.9855404785
 10
587.8700023527
 20
-341.1986655175
 10
583.9751601921
 20
-347.5357175802
 10
580.2532002959
 20
-353.9823412052
 10
576.7125541003
 20
-360.5239327167
 10
573.3612423078
 20
-367.1456733059
 10
570.2068567174
 20
-373.8325626006
 10
567.256543027
 20
-380.5694526457
 10
564.5169846462
 20
-387.3410822185
 10
561.9943875557
 20
-394.1321114001
 10
559.6944662494
 20
-400.9271563252
 10
557.6224307887
 20
-407.7108240313
 10
555.7829750003
 20
-414.4677473295
 10
554.1802658433
 20
-421.182619615
 10
552.8179339695
 20
-427.8402295425
 10
551.6990654985
 20
-434.4254954842
 10
550.8261950275
 20
-440.9234996946
 10
550.4001282093
 20
-445.0022417581
  0
ENDSEC
  0
SECTION
  2
OBJECTS
  0
DICTIONARY
  5
C
330
0
100
AcDbDictionary
281
     1
  3
ACAD_GROUP
350
D
  3
ACAD_LAYOUT
350
1A
  3
ACAD_MLINESTYLE
350
17
  3
ACAD_PLOTSETTINGS
350
19
  3
ACAD_PLOTSTYLENAME
350
E
  3
ACAD_SCALELIST
350
47
  3
DWGPROPS
350
B6
  0
DICTIONARY
  5
D
102
{ACAD_REACTORS
330
C
102
}
330
C
100
AcDbDictionary
281
     1
  0
DICTIONARY
  5
1A
102
{ACAD_REACTORS
330
C
102
}
330
C
100
AcDbDictionary
281
     1
  3
Layout1
350
1E
  3
Layout2
350
26
  3
Model
350
22
  0
DICTIONARY
  5
17
102
{ACAD_REACTORS
330
C
102
}
330
C
100
AcDbDictionary
281
     1
  3
Standard
350
18
  0
DICTIONARY
  5
19
102
{ACAD_REACTORS
330
C
102
}
330
C
100
AcDbDictionary
281
     1
  0
ACDBDICTIONARYWDFLT
  5
E
102
{ACAD_REACTORS
330
C
102
}
330
C
100
AcDbDictionary
281
     1
  3
Normal
350
F
100
AcDbDictionaryWithDefault
340
F
  0
DICTIONARY
  5
47
102
{ACAD_REACTORS
330
C
102
}
330
C
100
AcDbDictionary
281
     1
  3
A0
350
48
  3
A1
350
49
  3
A2
350
4A
  3
A3
350
4B
  3
A4
350
4C
  3
A5
350
4D
  3
A6
350
4E
  3
A7
350
4F
  3
A8
350
50
  3
A9
350
51
  3
B0
350
52
  3
B1
350
53
  3
B2
350
54
  3
B3
350
55
  3
B4
350
56
  3
B5
350
57
  3
B6
350
58
  3
B7
350
59
  3
B8
350
5A
  3
B9
350
5B
  3
C0
350
5C
  3
C1
350
5D
  3
C2
350
5E
  3
C3
350
5F
  3
C4
350
60
  3
C5
350
61
  3
C6
350
62
  3
C7
350
63
  3
C8
350
64
  3
C9
350
65
  3
D0
350
66
  3
D1
350
67
  3
D2
350
68
  0
XRECORD
  5
B6
102
{ACAD_REACTORS
330
C
102
}
330
C
100
AcDbXrecord
280
     1
  1
DWGPROPS COOKIE
  2

  3

  4

  6

  7

  8
b.kav
  9

300
=
301
=
302
=
303
=
304
=
305
=
306
=
307
=
308
=
309
=
 40
0.0
 41
2460704.335283102
 42
2460704.335283287
  1

 90
        0
  0
LAYOUT
  5
1E
102
{ACAD_REACTORS
330
1A
102
}
330
1A
100
AcDbPlotSettings
  1

  2
none_device
  4

  6

 40
0.0
 41
0.0
 42
0.0
 43
0.0
 44
0.0
 45
0.0
 46
0.0
 47
0.0
 48
0.0
 49
0.0
140
0.0
141
0.0
142
1.0
143
1.0
 70
   688
 72
     1
 73
     0
 74
     5
  7

 75
    16
147
1.0
148
0.0
149
0.0
100
AcDbLayout
  1
Layout1
 70
     1
 71
     1
 10
0.0
 20
0.0
 11
420.0
 21
297.0
 12
0.0
 22
0.0
 32
0.0
 14
1.0000000000E+20
 24
1.0000000000E+20
 34
1.0000000000E+20
 15
-1.0000000000E+20
 25
-1.0000000000E+20
 35
-1.0000000000E+20
146
0.0
 13
0.0
 23
0.0
 33
0.0
 16
1.0
 26
0.0
 36
0.0
 17
0.0
 27
1.0
 37
0.0
 76
     0
330
1B
  0
LAYOUT
  5
26
102
{ACAD_REACTORS
330
1A
102
}
330
1A
100
AcDbPlotSettings
  1

  2
none_device
  4

  6

 40
0.0
 41
0.0
 42
0.0
 43
0.0
 44
0.0
 45
0.0
 46
0.0
 47
0.0
 48
0.0
 49
0.0
140
0.0
141
0.0
142
1.0
143
1.0
 70
   688
 72
     1
 73
     0
 74
     5
  7

 75
    16
147
1.0
148
0.0
149
0.0
100
AcDbLayout
  1
Layout2
 70
     1
 71
     2
 10
0.0
 20
0.0
 11
0.0
 21
0.0
 12
0.0
 22
0.0
 32
0.0
 14
0.0
 24
0.0
 34
0.0
 15
0.0
 25
0.0
 35
0.0
146
0.0
 13
0.0
 23
0.0
 33
0.0
 16
1.0
 26
0.0
 36
0.0
 17
0.0
 27
1.0
 37
0.0
 76
     0
330
23
  0
LAYOUT
  5
22
102
{ACAD_REACTORS
330
1A
102
}
330
1A
100
AcDbPlotSettings
  1

  2
none_device
  4
Letter_(8.50_x_11.00_Inches)
  6

 40
6.35
 41
6.35
 42
6.35000508
 43
6.35000508
 44
215.9
 45
279.4
 46
0.0
 47
0.0
 48
0.0
 49
0.0
140
0.0
141
0.0
142
1.0
143
1.0
 70
  1712
 72
     1
 73
     0
 74
     0
  7

 75
     0
147
1.0
148
0.0
149
0.0
100
AcDbLayout
  1
Model
 70
     1
 71
     0
 10
0.0
 20
0.0
 11
279.4
 21
215.9
 12
0.0
 22
0.0
 32
0.0
 14
0.0
 24
0.0
 34
0.0
 15
279.4
 25
215.9
 35
0.0
146
0.0
 13
0.0
 23
0.0
 33
0.0
 16
1.0
 26
0.0
 36
0.0
 17
0.0
 27
1.0
 37
0.0
 76
     0
330
1F
331
29
  0
MLINESTYLE
  5
18
102
{ACAD_REACTORS
330
17
102
}
330
17
100
AcDbMlineStyle
  2
Standard
 70
     0
  3

 62
   256
 51
90.0
 52
90.0
 71
     2
 49
0.5
 62
   256
  6
BYLAYER
 49
-0.5
 62
   256
  6
BYLAYER
  0
ACDBPLACEHOLDER
  5
F
102
{ACAD_REACTORS
330
E
102
}
330
E
  0
SCALE
  5
48
102
{ACAD_REACTORS
330
47
102
}
330
47
100
AcDbScale
 70
     0
300
1:1
140
1.0
141
1.0
290
     1
  0
SCALE
  5
49
102
{ACAD_REACTORS
330
47
102
}
330
47
100
AcDbScale
 70
     0
300
1:2
140
1.0
141
2.0
290
     0
  0
SCALE
  5
4A
102
{ACAD_REACTORS
330
47
102
}
330
47
100
AcDbScale
 70
     0
300
1:4
140
1.0
141
4.0
290
     0
  0
SCALE
  5
4B
102
{ACAD_REACTORS
330
47
102
}
330
47
100
AcDbScale
 70
     0
300
1:5
140
1.0
141
5.0
290
     0
  0
SCALE
  5
4C
102
{ACAD_REACTORS
330
47
102
}
330
47
100
AcDbScale
 70
     0
300
1:8
140
1.0
141
8.0
290
     0
  0
SCALE
  5
4D
102
{ACAD_REACTORS
330
47
102
}
330
47
100
AcDbScale
 70
     0
300
1:10
140
1.0
141
10.0
290
     0
  0
SCALE
  5
4E
102
{ACAD_REACTORS
330
47
102
}
330
47
100
AcDbScale
 70
     0
300
1:16
140
1.0
141
16.0
290
     0
  0
SCALE
  5
4F
102
{ACAD_REACTORS
330
47
102
}
330
47
100
AcDbScale
 70
     0
300
1:20
140
1.0
141
20.0
290
     0
  0
SCALE
  5
50
102
{ACAD_REACTORS
330
47
102
}
330
47
100
AcDbScale
 70
     0
300
1:30
140
1.0
141
30.0
290
     0
  0
SCALE
  5
51
102
{ACAD_REACTORS
330
47
102
}
330
47
100
AcDbScale
 70
     0
300
1:40
140
1.0
141
40.0
290
     0
  0
SCALE
  5
52
102
{ACAD_REACTORS
330
47
102
}
330
47
100
AcDbScale
 70
     0
300
1:50
140
1.0
141
50.0
290
     0
  0
SCALE
  5
53
102
{ACAD_REACTORS
330
47
102
}
330
47
100
AcDbScale
 70
     0
300
1:100
140
1.0
141
100.0
290
     0
  0
SCALE
  5
54
102
{ACAD_REACTORS
330
47
102
}
330
47
100
AcDbScale
 70
     0
300
2:1
140
2.0
141
1.0
290
     0
  0
SCALE
  5
55
102
{ACAD_REACTORS
330
47
102
}
330
47
100
AcDbScale
 70
     0
300
4:1
140
4.0
141
1.0
290
     0
  0
SCALE
  5
56
102
{ACAD_REACTORS
330
47
102
}
330
47
100
AcDbScale
 70
     0
300
8:1
140
8.0
141
1.0
290
     0
  0
SCALE
  5
57
102
{ACAD_REACTORS
330
47
102
}
330
47
100
AcDbScale
 70
     0
300
10:1
140
10.0
141
1.0
290
     0
  0
SCALE
  5
58
102
{ACAD_REACTORS
330
47
102
}
330
47
100
AcDbScale
 70
     0
300
100:1
140
100.0
141
1.0
290
     0
  0
SCALE
  5
59
102
{ACAD_REACTORS
330
47
102
}
330
47
100
AcDbScale
 70
     0
300
1/128" = 1'-0"
140
0.0078125
141
12.0
290
     0
  0
SCALE
  5
5A
102
{ACAD_REACTORS
330
47
102
}
330
47
100
AcDbScale
 70
     0
300
1/64" = 1'-0"
140
0.015625
141
12.0
290
     0
  0
SCALE
  5
5B
102
{ACAD_REACTORS
330
47
102
}
330
47
100
AcDbScale
 70
     0
300
1/32" = 1'-0"
140
0.03125
141
12.0
290
     0
  0
SCALE
  5
5C
102
{ACAD_REACTORS
330
47
102
}
330
47
100
AcDbScale
 70
     0
300
1/16" = 1'-0"
140
0.0625
141
12.0
290
     0
  0
SCALE
  5
5D
102
{ACAD_REACTORS
330
47
102
}
330
47
100
AcDbScale
 70
     0
300
3/32" = 1'-0"
140
0.09375
141
12.0
290
     0
  0
SCALE
  5
5E
102
{ACAD_REACTORS
330
47
102
}
330
47
100
AcDbScale
 70
     0
300
1/8" = 1'-0"
140
0.125
141
12.0
290
     0
  0
SCALE
  5
5F
102
{ACAD_REACTORS
330
47
102
}
330
47
100
AcDbScale
 70
     0
300
3/16" = 1'-0"
140
0.1875
141
12.0
290
     0
  0
SCALE
  5
60
102
{ACAD_REACTORS
330
47
102
}
330
47
100
AcDbScale
 70
     0
300
1/4" = 1'-0"
140
0.25
141
12.0
290
     0
  0
SCALE
  5
61
102
{ACAD_REACTORS
330
47
102
}
330
47
100
AcDbScale
 70
     0
300
3/8" = 1'-0"
140
0.375
141
12.0
290
     0
  0
SCALE
  5
62
102
{ACAD_REACTORS
330
47
102
}
330
47
100
AcDbScale
 70
     0
300
1/2" = 1'-0"
140
0.5
141
12.0
290
     0
  0
SCALE
  5
63
102
{ACAD_REACTORS
330
47
102
}
330
47
100
AcDbScale
 70
     0
300
3/4" = 1'-0"
140
0.75
141
12.0
290
     0
  0
SCALE
  5
64
102
{ACAD_REACTORS
330
47
102
}
330
47
100
AcDbScale
 70
     0
300
1" = 1'-0"
140
1.0
141
12.0
290
     0
  0
SCALE
  5
65
102
{ACAD_REACTORS
330
47
102
}
330
47
100
AcDbScale
 70
     0
300
1-1/2" = 1'-0"
140
1.5
141
12.0
290
     0
  0
SCALE
  5
66
102
{ACAD_REACTORS
330
47
102
}
330
47
100
AcDbScale
 70
     0
300
3" = 1'-0"
140
3.0
141
12.0
290
     0
  0
SCALE
  5
67
102
{ACAD_REACTORS
330
47
102
}
330
47
100
AcDbScale
 70
     0
300
6" = 1'-0"
140
6.0
141
12.0
290
     0
  0
SCALE
  5
68
102
{ACAD_REACTORS
330
47
102
}
330
47
100
AcDbScale
 70
     0
300
1'-0" = 1'-0"
140
12.0
141
12.0
290
     0
  0
ENDSEC
  0
EOF
